ISO-10303-21;
HEADER;
/* Generated by software containing ST-Developer
 * from STEP Tools, Inc. (www.steptools.com) 
 */

FILE_DESCRIPTION(
/* description */ (''),
/* implementation_level */ '2;1');

FILE_NAME(
/* name */ 'Switch WIP.step',
/* time_stamp */ '2024-03-13T09:08:09Z',
/* author */ (''),
/* organization */ (''),
/* preprocessor_version */ 'ST-DEVELOPER v20',
/* originating_system */ 'Autodesk Translation Framework v12.20.1.177',

/* authorisation */ '');

FILE_SCHEMA (('AUTOMOTIVE_DESIGN { 1 0 10303 214 3 1 1 }'));
ENDSEC;

DATA;
#10=MECHANICAL_DESIGN_GEOMETRIC_PRESENTATION_REPRESENTATION('',(#13),#567);
#11=SHAPE_REPRESENTATION_RELATIONSHIP('SRR','None',#574,#12);
#12=ADVANCED_BREP_SHAPE_REPRESENTATION('',(#14),#566);
#13=STYLED_ITEM('',(#584),#14);
#14=MANIFOLD_SOLID_BREP('Body1',#327);
#15=FACE_BOUND('',#62,.T.);
#16=CYLINDRICAL_SURFACE('',#350,3.9);
#17=CYLINDRICAL_SURFACE('',#353,2.);
#18=CYLINDRICAL_SURFACE('',#362,2.);
#19=CYLINDRICAL_SURFACE('',#365,2.);
#20=CYLINDRICAL_SURFACE('',#368,2.);
#21=CYLINDRICAL_SURFACE('',#372,3.9);
#22=PLANE('',#344);
#23=PLANE('',#345);
#24=PLANE('',#349);
#25=PLANE('',#352);
#26=PLANE('',#356);
#27=PLANE('',#357);
#28=PLANE('',#364);
#29=PLANE('',#367);
#30=PLANE('',#370);
#31=PLANE('',#371);
#32=PLANE('',#373);
#33=FACE_OUTER_BOUND('',#52,.T.);
#34=FACE_OUTER_BOUND('',#53,.T.);
#35=FACE_OUTER_BOUND('',#54,.T.);
#36=FACE_OUTER_BOUND('',#55,.T.);
#37=FACE_OUTER_BOUND('',#56,.T.);
#38=FACE_OUTER_BOUND('',#57,.T.);
#39=FACE_OUTER_BOUND('',#58,.T.);
#40=FACE_OUTER_BOUND('',#59,.T.);
#41=FACE_OUTER_BOUND('',#60,.T.);
#42=FACE_OUTER_BOUND('',#61,.T.);
#43=FACE_OUTER_BOUND('',#63,.T.);
#44=FACE_OUTER_BOUND('',#64,.T.);
#45=FACE_OUTER_BOUND('',#65,.T.);
#46=FACE_OUTER_BOUND('',#66,.T.);
#47=FACE_OUTER_BOUND('',#67,.T.);
#48=FACE_OUTER_BOUND('',#68,.T.);
#49=FACE_OUTER_BOUND('',#69,.T.);
#50=FACE_OUTER_BOUND('',#70,.T.);
#51=FACE_OUTER_BOUND('',#71,.T.);
#52=EDGE_LOOP('',(#218,#219,#220,#221));
#53=EDGE_LOOP('',(#222,#223,#224,#225));
#54=EDGE_LOOP('',(#226,#227,#228,#229));
#55=EDGE_LOOP('',(#230,#231,#232,#233));
#56=EDGE_LOOP('',(#234,#235,#236,#237));
#57=EDGE_LOOP('',(#238,#239,#240,#241));
#58=EDGE_LOOP('',(#242,#243,#244,#245));
#59=EDGE_LOOP('',(#246,#247,#248,#249));
#60=EDGE_LOOP('',(#250,#251,#252,#253));
#61=EDGE_LOOP('',(#254,#255,#256,#257,#258,#259,#260,#261));
#62=EDGE_LOOP('',(#262,#263,#264,#265));
#63=EDGE_LOOP('',(#266,#267,#268,#269));
#64=EDGE_LOOP('',(#270,#271,#272,#273));
#65=EDGE_LOOP('',(#274,#275,#276,#277));
#66=EDGE_LOOP('',(#278,#279,#280,#281));
#67=EDGE_LOOP('',(#282,#283,#284,#285));
#68=EDGE_LOOP('',(#286,#287,#288,#289));
#69=EDGE_LOOP('',(#290,#291,#292,#293));
#70=EDGE_LOOP('',(#294,#295,#296,#297));
#71=EDGE_LOOP('',(#298,#299,#300,#301,#302,#303,#304,#305));
#72=CIRCLE('',#342,3.4);
#73=CIRCLE('',#343,3.9);
#74=CIRCLE('',#347,3.4);
#75=CIRCLE('',#348,3.9);
#76=CIRCLE('',#351,3.9);
#77=CIRCLE('',#354,2.);
#78=CIRCLE('',#355,2.);
#79=CIRCLE('',#358,2.);
#80=CIRCLE('',#359,2.);
#81=CIRCLE('',#360,2.);
#82=CIRCLE('',#361,3.9);
#83=CIRCLE('',#363,2.);
#84=CIRCLE('',#366,2.);
#85=CIRCLE('',#369,2.);
#86=LINE('',#476,#116);
#87=LINE('',#480,#117);
#88=LINE('',#484,#118);
#89=LINE('',#486,#119);
#90=LINE('',#487,#120);
#91=LINE('',#491,#121);
#92=LINE('',#492,#122);
#93=LINE('',#493,#123);
#94=LINE('',#499,#124);
#95=LINE('',#501,#125);
#96=LINE('',#502,#126);
#97=LINE('',#505,#127);
#98=LINE('',#513,#128);
#99=LINE('',#516,#129);
#100=LINE('',#519,#130);
#101=LINE('',#521,#131);
#102=LINE('',#522,#132);
#103=LINE('',#525,#133);
#104=LINE('',#529,#134);
#105=LINE('',#533,#135);
#106=LINE('',#536,#136);
#107=LINE('',#540,#137);
#108=LINE('',#544,#138);
#109=LINE('',#545,#139);
#110=LINE('',#548,#140);
#111=LINE('',#552,#141);
#112=LINE('',#553,#142);
#113=LINE('',#556,#143);
#114=LINE('',#559,#144);
#115=LINE('',#561,#145);
#116=VECTOR('',#378,10.);
#117=VECTOR('',#381,10.);
#118=VECTOR('',#386,10.);
#119=VECTOR('',#387,10.);
#120=VECTOR('',#388,10.);
#121=VECTOR('',#391,10.);
#122=VECTOR('',#392,10.);
#123=VECTOR('',#393,10.);
#124=VECTOR('',#402,10.);
#125=VECTOR('',#403,10.);
#126=VECTOR('',#404,10.);
#127=VECTOR('',#407,10.);
#128=VECTOR('',#416,10.);
#129=VECTOR('',#419,10.);
#130=VECTOR('',#422,10.);
#131=VECTOR('',#423,10.);
#132=VECTOR('',#424,10.);
#133=VECTOR('',#427,10.);
#134=VECTOR('',#430,10.);
#135=VECTOR('',#433,10.);
#136=VECTOR('',#436,10.);
#137=VECTOR('',#441,10.);
#138=VECTOR('',#446,10.);
#139=VECTOR('',#447,10.);
#140=VECTOR('',#450,10.);
#141=VECTOR('',#455,10.);
#142=VECTOR('',#456,10.);
#143=VECTOR('',#459,10.);
#144=VECTOR('',#464,10.);
#145=VECTOR('',#467,10.);
#146=VERTEX_POINT('',#474);
#147=VERTEX_POINT('',#475);
#148=VERTEX_POINT('',#477);
#149=VERTEX_POINT('',#479);
#150=VERTEX_POINT('',#483);
#151=VERTEX_POINT('',#485);
#152=VERTEX_POINT('',#489);
#153=VERTEX_POINT('',#490);
#154=VERTEX_POINT('',#498);
#155=VERTEX_POINT('',#500);
#156=VERTEX_POINT('',#504);
#157=VERTEX_POINT('',#509);
#158=VERTEX_POINT('',#510);
#159=VERTEX_POINT('',#512);
#160=VERTEX_POINT('',#514);
#161=VERTEX_POINT('',#518);
#162=VERTEX_POINT('',#520);
#163=VERTEX_POINT('',#524);
#164=VERTEX_POINT('',#526);
#165=VERTEX_POINT('',#528);
#166=VERTEX_POINT('',#530);
#167=VERTEX_POINT('',#532);
#168=VERTEX_POINT('',#535);
#169=VERTEX_POINT('',#539);
#170=VERTEX_POINT('',#543);
#171=VERTEX_POINT('',#547);
#172=VERTEX_POINT('',#551);
#173=VERTEX_POINT('',#555);
#174=EDGE_CURVE('',#146,#147,#86,.T.);
#175=EDGE_CURVE('',#147,#148,#72,.T.);
#176=EDGE_CURVE('',#148,#149,#87,.T.);
#177=EDGE_CURVE('',#149,#146,#73,.T.);
#178=EDGE_CURVE('',#148,#150,#88,.T.);
#179=EDGE_CURVE('',#150,#151,#89,.T.);
#180=EDGE_CURVE('',#151,#149,#90,.T.);
#181=EDGE_CURVE('',#152,#153,#91,.T.);
#182=EDGE_CURVE('',#153,#147,#92,.T.);
#183=EDGE_CURVE('',#146,#152,#93,.T.);
#184=EDGE_CURVE('',#150,#153,#74,.T.);
#185=EDGE_CURVE('',#152,#151,#75,.T.);
#186=EDGE_CURVE('',#154,#146,#94,.T.);
#187=EDGE_CURVE('',#154,#155,#95,.T.);
#188=EDGE_CURVE('',#152,#155,#96,.T.);
#189=EDGE_CURVE('',#156,#149,#97,.T.);
#190=EDGE_CURVE('',#156,#154,#76,.T.);
#191=EDGE_CURVE('',#157,#158,#77,.T.);
#192=EDGE_CURVE('',#158,#159,#98,.T.);
#193=EDGE_CURVE('',#159,#160,#78,.T.);
#194=EDGE_CURVE('',#160,#157,#99,.T.);
#195=EDGE_CURVE('',#161,#158,#100,.T.);
#196=EDGE_CURVE('',#162,#161,#101,.T.);
#197=EDGE_CURVE('',#162,#159,#102,.T.);
#198=EDGE_CURVE('',#157,#163,#103,.T.);
#199=EDGE_CURVE('',#164,#163,#79,.T.);
#200=EDGE_CURVE('',#164,#165,#104,.T.);
#201=EDGE_CURVE('',#166,#165,#80,.T.);
#202=EDGE_CURVE('',#166,#167,#105,.T.);
#203=EDGE_CURVE('',#161,#167,#81,.T.);
#204=EDGE_CURVE('',#168,#156,#106,.T.);
#205=EDGE_CURVE('',#155,#168,#82,.T.);
#206=EDGE_CURVE('',#167,#169,#107,.T.);
#207=EDGE_CURVE('',#169,#162,#83,.T.);
#208=EDGE_CURVE('',#170,#166,#108,.T.);
#209=EDGE_CURVE('',#170,#169,#109,.T.);
#210=EDGE_CURVE('',#165,#171,#110,.T.);
#211=EDGE_CURVE('',#171,#170,#84,.T.);
#212=EDGE_CURVE('',#172,#164,#111,.T.);
#213=EDGE_CURVE('',#172,#171,#112,.T.);
#214=EDGE_CURVE('',#163,#173,#113,.T.);
#215=EDGE_CURVE('',#173,#172,#85,.T.);
#216=EDGE_CURVE('',#160,#173,#114,.T.);
#217=EDGE_CURVE('',#168,#151,#115,.T.);
#218=ORIENTED_EDGE('',*,*,#174,.T.);
#219=ORIENTED_EDGE('',*,*,#175,.T.);
#220=ORIENTED_EDGE('',*,*,#176,.T.);
#221=ORIENTED_EDGE('',*,*,#177,.T.);
#222=ORIENTED_EDGE('',*,*,#176,.F.);
#223=ORIENTED_EDGE('',*,*,#178,.T.);
#224=ORIENTED_EDGE('',*,*,#179,.T.);
#225=ORIENTED_EDGE('',*,*,#180,.T.);
#226=ORIENTED_EDGE('',*,*,#181,.T.);
#227=ORIENTED_EDGE('',*,*,#182,.T.);
#228=ORIENTED_EDGE('',*,*,#174,.F.);
#229=ORIENTED_EDGE('',*,*,#183,.T.);
#230=ORIENTED_EDGE('',*,*,#179,.F.);
#231=ORIENTED_EDGE('',*,*,#184,.T.);
#232=ORIENTED_EDGE('',*,*,#181,.F.);
#233=ORIENTED_EDGE('',*,*,#185,.T.);
#234=ORIENTED_EDGE('',*,*,#183,.F.);
#235=ORIENTED_EDGE('',*,*,#186,.F.);
#236=ORIENTED_EDGE('',*,*,#187,.T.);
#237=ORIENTED_EDGE('',*,*,#188,.F.);
#238=ORIENTED_EDGE('',*,*,#177,.F.);
#239=ORIENTED_EDGE('',*,*,#189,.F.);
#240=ORIENTED_EDGE('',*,*,#190,.T.);
#241=ORIENTED_EDGE('',*,*,#186,.T.);
#242=ORIENTED_EDGE('',*,*,#175,.F.);
#243=ORIENTED_EDGE('',*,*,#182,.F.);
#244=ORIENTED_EDGE('',*,*,#184,.F.);
#245=ORIENTED_EDGE('',*,*,#178,.F.);
#246=ORIENTED_EDGE('',*,*,#191,.T.);
#247=ORIENTED_EDGE('',*,*,#192,.T.);
#248=ORIENTED_EDGE('',*,*,#193,.T.);
#249=ORIENTED_EDGE('',*,*,#194,.T.);
#250=ORIENTED_EDGE('',*,*,#192,.F.);
#251=ORIENTED_EDGE('',*,*,#195,.F.);
#252=ORIENTED_EDGE('',*,*,#196,.F.);
#253=ORIENTED_EDGE('',*,*,#197,.T.);
#254=ORIENTED_EDGE('',*,*,#191,.F.);
#255=ORIENTED_EDGE('',*,*,#198,.T.);
#256=ORIENTED_EDGE('',*,*,#199,.F.);
#257=ORIENTED_EDGE('',*,*,#200,.T.);
#258=ORIENTED_EDGE('',*,*,#201,.F.);
#259=ORIENTED_EDGE('',*,*,#202,.T.);
#260=ORIENTED_EDGE('',*,*,#203,.F.);
#261=ORIENTED_EDGE('',*,*,#195,.T.);
#262=ORIENTED_EDGE('',*,*,#187,.F.);
#263=ORIENTED_EDGE('',*,*,#190,.F.);
#264=ORIENTED_EDGE('',*,*,#204,.F.);
#265=ORIENTED_EDGE('',*,*,#205,.F.);
#266=ORIENTED_EDGE('',*,*,#203,.T.);
#267=ORIENTED_EDGE('',*,*,#206,.T.);
#268=ORIENTED_EDGE('',*,*,#207,.T.);
#269=ORIENTED_EDGE('',*,*,#196,.T.);
#270=ORIENTED_EDGE('',*,*,#206,.F.);
#271=ORIENTED_EDGE('',*,*,#202,.F.);
#272=ORIENTED_EDGE('',*,*,#208,.F.);
#273=ORIENTED_EDGE('',*,*,#209,.T.);
#274=ORIENTED_EDGE('',*,*,#201,.T.);
#275=ORIENTED_EDGE('',*,*,#210,.T.);
#276=ORIENTED_EDGE('',*,*,#211,.T.);
#277=ORIENTED_EDGE('',*,*,#208,.T.);
#278=ORIENTED_EDGE('',*,*,#210,.F.);
#279=ORIENTED_EDGE('',*,*,#200,.F.);
#280=ORIENTED_EDGE('',*,*,#212,.F.);
#281=ORIENTED_EDGE('',*,*,#213,.T.);
#282=ORIENTED_EDGE('',*,*,#199,.T.);
#283=ORIENTED_EDGE('',*,*,#214,.T.);
#284=ORIENTED_EDGE('',*,*,#215,.T.);
#285=ORIENTED_EDGE('',*,*,#212,.T.);
#286=ORIENTED_EDGE('',*,*,#194,.F.);
#287=ORIENTED_EDGE('',*,*,#216,.T.);
#288=ORIENTED_EDGE('',*,*,#214,.F.);
#289=ORIENTED_EDGE('',*,*,#198,.F.);
#290=ORIENTED_EDGE('',*,*,#180,.F.);
#291=ORIENTED_EDGE('',*,*,#217,.F.);
#292=ORIENTED_EDGE('',*,*,#204,.T.);
#293=ORIENTED_EDGE('',*,*,#189,.T.);
#294=ORIENTED_EDGE('',*,*,#185,.F.);
#295=ORIENTED_EDGE('',*,*,#188,.T.);
#296=ORIENTED_EDGE('',*,*,#205,.T.);
#297=ORIENTED_EDGE('',*,*,#217,.T.);
#298=ORIENTED_EDGE('',*,*,#193,.F.);
#299=ORIENTED_EDGE('',*,*,#197,.F.);
#300=ORIENTED_EDGE('',*,*,#207,.F.);
#301=ORIENTED_EDGE('',*,*,#209,.F.);
#302=ORIENTED_EDGE('',*,*,#211,.F.);
#303=ORIENTED_EDGE('',*,*,#213,.F.);
#304=ORIENTED_EDGE('',*,*,#215,.F.);
#305=ORIENTED_EDGE('',*,*,#216,.F.);
#306=CONICAL_SURFACE('',#341,3.65,0.785398163397448);
#307=CONICAL_SURFACE('',#346,3.65,0.785398163397451);
#308=ADVANCED_FACE('',(#33),#306,.T.);
#309=ADVANCED_FACE('',(#34),#22,.T.);
#310=ADVANCED_FACE('',(#35),#23,.T.);
#311=ADVANCED_FACE('',(#36),#307,.T.);
#312=ADVANCED_FACE('',(#37),#24,.T.);
#313=ADVANCED_FACE('',(#38),#16,.T.);
#314=ADVANCED_FACE('',(#39),#25,.T.);
#315=ADVANCED_FACE('',(#40),#17,.T.);
#316=ADVANCED_FACE('',(#41),#26,.T.);
#317=ADVANCED_FACE('',(#42,#15),#27,.F.);
#318=ADVANCED_FACE('',(#43),#18,.T.);
#319=ADVANCED_FACE('',(#44),#28,.T.);
#320=ADVANCED_FACE('',(#45),#19,.T.);
#321=ADVANCED_FACE('',(#46),#29,.T.);
#322=ADVANCED_FACE('',(#47),#20,.T.);
#323=ADVANCED_FACE('',(#48),#30,.T.);
#324=ADVANCED_FACE('',(#49),#31,.T.);
#325=ADVANCED_FACE('',(#50),#21,.T.);
#326=ADVANCED_FACE('',(#51),#32,.T.);
#327=CLOSED_SHELL('',(#308,#309,#310,#311,#312,#313,#314,#315,#316,#317,
#318,#319,#320,#321,#322,#323,#324,#325,#326));
#328=DERIVED_UNIT_ELEMENT(#330,1.);
#329=DERIVED_UNIT_ELEMENT(#569,-3.);
#330=(
MASS_UNIT()
NAMED_UNIT(*)
SI_UNIT(.KILO.,.GRAM.)
);
#331=DERIVED_UNIT((#328,#329));
#332=MEASURE_REPRESENTATION_ITEM('density measure',
POSITIVE_RATIO_MEASURE(7850.),#331);
#333=PROPERTY_DEFINITION_REPRESENTATION(#338,#335);
#334=PROPERTY_DEFINITION_REPRESENTATION(#339,#336);
#335=REPRESENTATION('material name',(#337),#566);
#336=REPRESENTATION('density',(#332),#566);
#337=DESCRIPTIVE_REPRESENTATION_ITEM('Steel','Steel');
#338=PROPERTY_DEFINITION('material property','material name',#576);
#339=PROPERTY_DEFINITION('material property','density of part',#576);
#340=AXIS2_PLACEMENT_3D('',#472,#374,#375);
#341=AXIS2_PLACEMENT_3D('',#473,#376,#377);
#342=AXIS2_PLACEMENT_3D('',#478,#379,#380);
#343=AXIS2_PLACEMENT_3D('',#481,#382,#383);
#344=AXIS2_PLACEMENT_3D('',#482,#384,#385);
#345=AXIS2_PLACEMENT_3D('',#488,#389,#390);
#346=AXIS2_PLACEMENT_3D('',#494,#394,#395);
#347=AXIS2_PLACEMENT_3D('',#495,#396,#397);
#348=AXIS2_PLACEMENT_3D('',#496,#398,#399);
#349=AXIS2_PLACEMENT_3D('',#497,#400,#401);
#350=AXIS2_PLACEMENT_3D('',#503,#405,#406);
#351=AXIS2_PLACEMENT_3D('',#506,#408,#409);
#352=AXIS2_PLACEMENT_3D('',#507,#410,#411);
#353=AXIS2_PLACEMENT_3D('',#508,#412,#413);
#354=AXIS2_PLACEMENT_3D('',#511,#414,#415);
#355=AXIS2_PLACEMENT_3D('',#515,#417,#418);
#356=AXIS2_PLACEMENT_3D('',#517,#420,#421);
#357=AXIS2_PLACEMENT_3D('',#523,#425,#426);
#358=AXIS2_PLACEMENT_3D('',#527,#428,#429);
#359=AXIS2_PLACEMENT_3D('',#531,#431,#432);
#360=AXIS2_PLACEMENT_3D('',#534,#434,#435);
#361=AXIS2_PLACEMENT_3D('',#537,#437,#438);
#362=AXIS2_PLACEMENT_3D('',#538,#439,#440);
#363=AXIS2_PLACEMENT_3D('',#541,#442,#443);
#364=AXIS2_PLACEMENT_3D('',#542,#444,#445);
#365=AXIS2_PLACEMENT_3D('',#546,#448,#449);
#366=AXIS2_PLACEMENT_3D('',#549,#451,#452);
#367=AXIS2_PLACEMENT_3D('',#550,#453,#454);
#368=AXIS2_PLACEMENT_3D('',#554,#457,#458);
#369=AXIS2_PLACEMENT_3D('',#557,#460,#461);
#370=AXIS2_PLACEMENT_3D('',#558,#462,#463);
#371=AXIS2_PLACEMENT_3D('',#560,#465,#466);
#372=AXIS2_PLACEMENT_3D('',#562,#468,#469);
#373=AXIS2_PLACEMENT_3D('',#563,#470,#471);
#374=DIRECTION('axis',(0.,0.,1.));
#375=DIRECTION('refdir',(1.,0.,0.));
#376=DIRECTION('center_axis',(-1.,0.,0.));
#377=DIRECTION('ref_axis',(0.,-1.11022302462516E-15,-1.));
#378=DIRECTION('',(0.707106781186548,0.,-0.707106781186548));
#379=DIRECTION('center_axis',(-1.,0.,0.));
#380=DIRECTION('ref_axis',(0.,-1.11022302462516E-15,-1.));
#381=DIRECTION('',(-0.707106781186548,0.,-0.707106781186548));
#382=DIRECTION('center_axis',(1.,0.,0.));
#383=DIRECTION('ref_axis',(0.,-1.11022302462516E-15,-1.));
#384=DIRECTION('center_axis',(0.707106781186552,-5.60747306672773E-16,-0.707106781186543));
#385=DIRECTION('ref_axis',(-0.707106781186543,0.,-0.707106781186552));
#386=DIRECTION('',(0.,-1.,7.93016446160826E-16));
#387=DIRECTION('',(-0.707106781186542,0.,-0.707106781186553));
#388=DIRECTION('',(0.,1.,-7.93016446160826E-16));
#389=DIRECTION('center_axis',(0.707106781186554,4.48597845338217E-16,0.707106781186541));
#390=DIRECTION('ref_axis',(0.707106781186541,0.,-0.707106781186554));
#391=DIRECTION('',(0.70710678118654,0.,-0.707106781186555));
#392=DIRECTION('',(0.,1.,-6.34413156928661E-16));
#393=DIRECTION('',(0.,-1.,6.34413156928661E-16));
#394=DIRECTION('center_axis',(-1.,0.,0.));
#395=DIRECTION('ref_axis',(0.,1.11022302462516E-15,1.));
#396=DIRECTION('center_axis',(-1.,0.,0.));
#397=DIRECTION('ref_axis',(0.,1.11022302462516E-15,1.));
#398=DIRECTION('center_axis',(1.,0.,0.));
#399=DIRECTION('ref_axis',(0.,1.11022302462516E-15,1.));
#400=DIRECTION('center_axis',(0.,6.34413156928661E-16,1.));
#401=DIRECTION('ref_axis',(0.,1.,-6.34413156928661E-16));
#402=DIRECTION('',(1.,0.,0.));
#403=DIRECTION('',(4.99257121810076E-17,-1.,6.34413156928661E-16));
#404=DIRECTION('',(-1.,0.,0.));
#405=DIRECTION('center_axis',(-1.,0.,0.));
#406=DIRECTION('ref_axis',(0.,-1.11022302462516E-15,-1.));
#407=DIRECTION('',(1.,0.,0.));
#408=DIRECTION('center_axis',(1.,4.99257121810076E-17,0.));
#409=DIRECTION('ref_axis',(0.,-1.11022302462516E-15,-1.));
#410=DIRECTION('center_axis',(1.,0.,0.));
#411=DIRECTION('ref_axis',(0.,1.,0.));
#412=DIRECTION('center_axis',(1.,0.,0.));
#413=DIRECTION('ref_axis',(0.,0.707106781186548,0.707106781186548));
#414=DIRECTION('center_axis',(-1.,-4.99257121810076E-17,0.));
#415=DIRECTION('ref_axis',(0.,0.707106781186548,0.707106781186548));
#416=DIRECTION('',(-1.,0.,0.));
#417=DIRECTION('center_axis',(1.,4.99257121810076E-17,0.));
#418=DIRECTION('ref_axis',(0.,0.707106781186548,0.707106781186548));
#419=DIRECTION('',(1.,0.,0.));
#420=DIRECTION('center_axis',(0.,1.,2.92163953848726E-16));
#421=DIRECTION('ref_axis',(1.45864934695167E-32,-2.92163953848726E-16,1.));
#422=DIRECTION('',(1.45864934695167E-32,-2.92163953848726E-16,1.));
#423=DIRECTION('',(1.,0.,0.));
#424=DIRECTION('',(1.45864934695167E-32,-2.92163953848726E-16,1.));
#425=DIRECTION('center_axis',(-1.,-4.99257121810076E-17,0.));
#426=DIRECTION('ref_axis',(0.,0.,1.));
#427=DIRECTION('',(4.99257121810076E-17,-1.,0.));
#428=DIRECTION('center_axis',(-1.,-4.99257121810076E-17,0.));
#429=DIRECTION('ref_axis',(0.,-0.707106781186548,0.707106781186548));
#430=DIRECTION('',(2.91729869390334E-32,-5.84327907697452E-16,-1.));
#431=DIRECTION('center_axis',(-1.,-4.99257121810076E-17,0.));
#432=DIRECTION('ref_axis',(0.,-0.707106781186547,-0.707106781186548));
#433=DIRECTION('',(-4.99257121810076E-17,1.,0.));
#434=DIRECTION('center_axis',(-1.,-4.99257121810076E-17,0.));
#435=DIRECTION('ref_axis',(0.,0.707106781186548,-0.707106781186547));
#436=DIRECTION('',(-4.99257121810076E-17,1.,-7.93016446160826E-16));
#437=DIRECTION('center_axis',(1.,4.99257121810076E-17,0.));
#438=DIRECTION('ref_axis',(0.,1.11022302462516E-15,1.));
#439=DIRECTION('center_axis',(1.,0.,0.));
#440=DIRECTION('ref_axis',(0.,0.707106781186548,-0.707106781186547));
#441=DIRECTION('',(-1.,0.,0.));
#442=DIRECTION('center_axis',(1.,4.99257121810076E-17,0.));
#443=DIRECTION('ref_axis',(0.,0.707106781186548,-0.707106781186547));
#444=DIRECTION('center_axis',(0.,0.,-1.));
#445=DIRECTION('ref_axis',(-4.99257121810076E-17,1.,0.));
#446=DIRECTION('',(1.,0.,0.));
#447=DIRECTION('',(-4.99257121810076E-17,1.,0.));
#448=DIRECTION('center_axis',(1.,0.,0.));
#449=DIRECTION('ref_axis',(0.,-0.707106781186547,-0.707106781186548));
#450=DIRECTION('',(-1.,0.,0.));
#451=DIRECTION('center_axis',(1.,4.99257121810076E-17,0.));
#452=DIRECTION('ref_axis',(0.,-0.707106781186547,-0.707106781186548));
#453=DIRECTION('center_axis',(0.,-1.,5.84327907697452E-16));
#454=DIRECTION('ref_axis',(2.91729869390334E-32,-5.84327907697452E-16,-1.));
#455=DIRECTION('',(1.,0.,0.));
#456=DIRECTION('',(2.91729869390334E-32,-5.84327907697452E-16,-1.));
#457=DIRECTION('center_axis',(1.,0.,0.));
#458=DIRECTION('ref_axis',(0.,-0.707106781186548,0.707106781186548));
#459=DIRECTION('',(-1.,0.,0.));
#460=DIRECTION('center_axis',(1.,4.99257121810076E-17,0.));
#461=DIRECTION('ref_axis',(0.,-0.707106781186548,0.707106781186548));
#462=DIRECTION('center_axis',(0.,0.,1.));
#463=DIRECTION('ref_axis',(4.99257121810076E-17,-1.,0.));
#464=DIRECTION('',(4.99257121810076E-17,-1.,0.));
#465=DIRECTION('center_axis',(0.,-7.93016446160826E-16,-1.));
#466=DIRECTION('ref_axis',(0.,-1.,7.93016446160826E-16));
#467=DIRECTION('',(1.,0.,0.));
#468=DIRECTION('center_axis',(-1.,0.,0.));
#469=DIRECTION('ref_axis',(0.,1.11022302462516E-15,1.));
#470=DIRECTION('center_axis',(-1.,-4.99257121810076E-17,0.));
#471=DIRECTION('ref_axis',(0.,0.,1.));
#472=CARTESIAN_POINT('',(0.,0.,0.));
#473=CARTESIAN_POINT('Origin',(29.45,30.075,10.6));
#474=CARTESIAN_POINT('',(29.2,30.075,14.5));
#475=CARTESIAN_POINT('',(29.7,30.075,14.));
#476=CARTESIAN_POINT('',(29.2,30.075,14.5));
#477=CARTESIAN_POINT('',(29.7,30.075,7.20000000000001));
#478=CARTESIAN_POINT('Origin',(29.7,30.075,10.6));
#479=CARTESIAN_POINT('',(29.2,30.075,6.70000000000002));
#480=CARTESIAN_POINT('',(29.7,30.075,7.20000000000001));
#481=CARTESIAN_POINT('Origin',(29.2,30.075,10.6));
#482=CARTESIAN_POINT('Origin',(29.45,28.325,6.95000000000002));
#483=CARTESIAN_POINT('',(29.7,23.075,7.20000000000002));
#484=CARTESIAN_POINT('',(29.7,28.325,7.20000000000002));
#485=CARTESIAN_POINT('',(29.2,23.075,6.70000000000002));
#486=CARTESIAN_POINT('',(29.7,23.075,7.20000000000002));
#487=CARTESIAN_POINT('',(29.2,28.325,6.70000000000002));
#488=CARTESIAN_POINT('Origin',(29.45,24.825,14.25));
#489=CARTESIAN_POINT('',(29.2,23.075,14.5));
#490=CARTESIAN_POINT('',(29.7,23.075,14.));
#491=CARTESIAN_POINT('',(29.2,23.075,14.5));
#492=CARTESIAN_POINT('',(29.7,24.825,14.));
#493=CARTESIAN_POINT('',(29.2,24.825,14.5));
#494=CARTESIAN_POINT('Origin',(29.45,23.075,10.6));
#495=CARTESIAN_POINT('Origin',(29.7,23.075,10.6));
#496=CARTESIAN_POINT('Origin',(29.2,23.075,10.6));
#497=CARTESIAN_POINT('Origin',(28.7,23.075,14.5));
#498=CARTESIAN_POINT('',(27.2,30.075,14.5));
#499=CARTESIAN_POINT('',(28.7,30.075,14.5));
#500=CARTESIAN_POINT('',(27.2,23.075,14.5));
#501=CARTESIAN_POINT('',(27.2,24.825,14.5));
#502=CARTESIAN_POINT('',(28.7,23.075,14.5));
#503=CARTESIAN_POINT('Origin',(28.7,30.075,10.6));
#504=CARTESIAN_POINT('',(27.2,30.075,6.70000000000002));
#505=CARTESIAN_POINT('',(28.7,30.075,6.70000000000002));
#506=CARTESIAN_POINT('Origin',(27.2,30.075,10.6));
#507=CARTESIAN_POINT('Origin',(29.7,26.575,10.6));
#508=CARTESIAN_POINT('Origin',(26.2,35.075,16.1));
#509=CARTESIAN_POINT('',(27.2,35.075,18.1));
#510=CARTESIAN_POINT('',(27.2,37.075,16.1));
#511=CARTESIAN_POINT('Origin',(27.2,35.075,16.1));
#512=CARTESIAN_POINT('',(26.2,37.075,16.1));
#513=CARTESIAN_POINT('',(26.2,37.075,16.1));
#514=CARTESIAN_POINT('',(26.2,35.075,18.1));
#515=CARTESIAN_POINT('Origin',(26.2,35.075,16.1));
#516=CARTESIAN_POINT('',(26.2,35.075,18.1));
#517=CARTESIAN_POINT('Origin',(26.2,37.075,3.00000000000003));
#518=CARTESIAN_POINT('',(27.2,37.075,5.10000000000003));
#519=CARTESIAN_POINT('',(27.2,37.075,14.4));
#520=CARTESIAN_POINT('',(26.2,37.075,5.10000000000003));
#521=CARTESIAN_POINT('',(26.2,37.075,5.10000000000003));
#522=CARTESIAN_POINT('',(26.2,37.075,14.4));
#523=CARTESIAN_POINT('Origin',(27.2,26.575,10.6));
#524=CARTESIAN_POINT('',(27.2,18.075,18.1));
#525=CARTESIAN_POINT('',(27.2,31.825,18.1));
#526=CARTESIAN_POINT('',(27.2,16.075,16.1));
#527=CARTESIAN_POINT('Origin',(27.2,18.075,16.1));
#528=CARTESIAN_POINT('',(27.2,16.075,5.10000000000003));
#529=CARTESIAN_POINT('',(27.2,16.075,6.80000000000002));
#530=CARTESIAN_POINT('',(27.2,18.075,3.10000000000003));
#531=CARTESIAN_POINT('Origin',(27.2,18.075,5.10000000000003));
#532=CARTESIAN_POINT('',(27.2,35.075,3.10000000000003));
#533=CARTESIAN_POINT('',(27.2,21.325,3.10000000000003));
#534=CARTESIAN_POINT('Origin',(27.2,35.075,5.10000000000003));
#535=CARTESIAN_POINT('',(27.2,23.075,6.70000000000002));
#536=CARTESIAN_POINT('',(27.2,28.325,6.70000000000002));
#537=CARTESIAN_POINT('Origin',(27.2,23.075,10.6));
#538=CARTESIAN_POINT('Origin',(26.2,35.075,5.10000000000003));
#539=CARTESIAN_POINT('',(26.2,35.075,3.10000000000003));
#540=CARTESIAN_POINT('',(26.2,35.075,3.10000000000003));
#541=CARTESIAN_POINT('Origin',(26.2,35.075,5.10000000000003));
#542=CARTESIAN_POINT('Origin',(26.2,16.075,3.10000000000003));
#543=CARTESIAN_POINT('',(26.2,18.075,3.10000000000003));
#544=CARTESIAN_POINT('',(26.2,18.075,3.10000000000003));
#545=CARTESIAN_POINT('',(26.2,21.325,3.10000000000003));
#546=CARTESIAN_POINT('Origin',(26.2,18.075,5.10000000000003));
#547=CARTESIAN_POINT('',(26.2,16.075,5.10000000000003));
#548=CARTESIAN_POINT('',(26.2,16.075,5.10000000000003));
#549=CARTESIAN_POINT('Origin',(26.2,18.075,5.10000000000003));
#550=CARTESIAN_POINT('Origin',(26.2,16.075,18.2));
#551=CARTESIAN_POINT('',(26.2,16.075,16.1));
#552=CARTESIAN_POINT('',(26.2,16.075,16.1));
#553=CARTESIAN_POINT('',(26.2,16.075,6.80000000000002));
#554=CARTESIAN_POINT('Origin',(26.2,18.075,16.1));
#555=CARTESIAN_POINT('',(26.2,18.075,18.1));
#556=CARTESIAN_POINT('',(26.2,18.075,18.1));
#557=CARTESIAN_POINT('Origin',(26.2,18.075,16.1));
#558=CARTESIAN_POINT('Origin',(26.2,37.075,18.1));
#559=CARTESIAN_POINT('',(26.2,31.825,18.1));
#560=CARTESIAN_POINT('Origin',(28.7,30.075,6.70000000000002));
#561=CARTESIAN_POINT('',(28.7,23.075,6.70000000000002));
#562=CARTESIAN_POINT('Origin',(28.7,23.075,10.6));
#563=CARTESIAN_POINT('Origin',(26.2,26.575,10.6));
#564=UNCERTAINTY_MEASURE_WITH_UNIT(LENGTH_MEASURE(0.01),#568,
'DISTANCE_ACCURACY_VALUE',
'Maximum model space distance between geometric entities at asserted c
onnectivities');
#565=UNCERTAINTY_MEASURE_WITH_UNIT(LENGTH_MEASURE(0.01),#568,
'DISTANCE_ACCURACY_VALUE',
'Maximum model space distance between geometric entities at asserted c
onnectivities');
#566=(
GEOMETRIC_REPRESENTATION_CONTEXT(3)
GLOBAL_UNCERTAINTY_ASSIGNED_CONTEXT((#564))
GLOBAL_UNIT_ASSIGNED_CONTEXT((#568,#570,#571))
REPRESENTATION_CONTEXT('','3D')
);
#567=(
GEOMETRIC_REPRESENTATION_CONTEXT(3)
GLOBAL_UNCERTAINTY_ASSIGNED_CONTEXT((#565))
GLOBAL_UNIT_ASSIGNED_CONTEXT((#568,#570,#571))
REPRESENTATION_CONTEXT('','3D')
);
#568=(
LENGTH_UNIT()
NAMED_UNIT(*)
SI_UNIT(.MILLI.,.METRE.)
);
#569=(
LENGTH_UNIT()
NAMED_UNIT(*)
SI_UNIT($,.METRE.)
);
#570=(
NAMED_UNIT(*)
PLANE_ANGLE_UNIT()
SI_UNIT($,.RADIAN.)
);
#571=(
NAMED_UNIT(*)
SI_UNIT($,.STERADIAN.)
SOLID_ANGLE_UNIT()
);
#572=SHAPE_DEFINITION_REPRESENTATION(#573,#574);
#573=PRODUCT_DEFINITION_SHAPE('',$,#576);
#574=SHAPE_REPRESENTATION('',(#340),#566);
#575=PRODUCT_DEFINITION_CONTEXT('part definition',#580,'design');
#576=PRODUCT_DEFINITION('Slider','Slider',#577,#575);
#577=PRODUCT_DEFINITION_FORMATION('',$,#582);
#578=PRODUCT_RELATED_PRODUCT_CATEGORY('Slider','Slider',(#582));
#579=APPLICATION_PROTOCOL_DEFINITION('international standard',
'automotive_design',2009,#580);
#580=APPLICATION_CONTEXT(
'Core Data for Automotive Mechanical Design Process');
#581=PRODUCT_CONTEXT('part definition',#580,'mechanical');
#582=PRODUCT('Slider','Slider',$,(#581));
#583=PRESENTATION_STYLE_ASSIGNMENT((#585));
#584=PRESENTATION_STYLE_ASSIGNMENT((#586));
#585=SURFACE_STYLE_USAGE(.BOTH.,#587);
#586=SURFACE_STYLE_USAGE(.BOTH.,#588);
#587=SURFACE_SIDE_STYLE('',(#589));
#588=SURFACE_SIDE_STYLE('',(#590));
#589=SURFACE_STYLE_FILL_AREA(#591);
#590=SURFACE_STYLE_FILL_AREA(#592);
#591=FILL_AREA_STYLE('Steel - Satin',(#593));
#592=FILL_AREA_STYLE('Aluminum - Bead Blasted',(#594));
#593=FILL_AREA_STYLE_COLOUR('Steel - Satin',#595);
#594=FILL_AREA_STYLE_COLOUR('Aluminum - Bead Blasted',#596);
#595=COLOUR_RGB('Steel - Satin',0.627450980392157,0.627450980392157,0.627450980392157);
#596=COLOUR_RGB('Aluminum - Bead Blasted',0.96078431372549,0.96078431372549,
0.964705882352941);
ENDSEC;
END-ISO-10303-21;
